Сайт для бас гитаристов
Новости о бас гитаре Уроки для бас гитаристов Статьи на басовые темы Форум для бас гитаристов BassLife подкасты



Как развить мизинец левой руки? Ответ вы найдете в этом уроке.

Привет! Хорошо, что есть такой сайт, как megabass.h10.ru. На нем я нашел много интересных статей и получил исчерпывающие ответы на мои вопросы. Я играю чуть меньше года, но играю уже неплохо. (По крайней мере, так думает мой друг гитарист.) Я упорно занимаюсь каждый день, и хочу поделиться с вами некоторыми своими секретами. Вы наверное думаете, какие там секреты, научился парень по ладам бегать и вообразил себя мастером гитары. Не судите меня строго, уверен, что приведенные ниже советы будут Вам полезны.

В своем обучении я руководствовался следующими правилами:

  1. Пытайтесь играть все то, что Вам нравится. Если данное произведение вам не нравится, то даже не стоит его разучивать. Играйте песни своих кумиров и идолов!
  2. За один присест вы никогда не сможете сыграть идеально изучаемое произведение. Делайте перерывы, сходите попить чайку.
  3. Первые пару раз лучше играть без использования примочек, так легче запомнить произведение.
  4. Ваша гитара должна быть всегда правильно настроена, никогда не играйте на расстроенной гитаре.
  5. Не должно быть скрежета и звона. Сильнее зажимайте струны.
  6. Если какой либо кусок произведения Вам не дается, то попробуйте сыграть его другим способом. Поменяйте расстановку пальцев.
  7. Сначала всегда играйте медленно, только тогда вы добьетесь чистого звучания.
  8. Наслаждайтесь процессом. Если вам надоело играть произведения, придумывайте, импровизируйте, подбирайте любимые мелодий. Не обязательно подбирайте бас партию!
  9. Играйте не только бас партий. Вы легко можете играть партий других инструментов.
  10. Не забывайте разминать пальцы рук перед игрой. Это вам в будущем сэкономит кучу времени.
  11. Никогда не говорите "не могу", говорите "еще 10 раз попробую…", тогда у вас всегда все будет получаться!

Начнем мы с того, что я попытаюсь объяснить, зачем нам вообще развивать мизинец. Некоторые люди могут вполне самодостаточно играть на бас гитаре используя только три, а то и два пальца, но еще один палец дает вам гораздо больше возможностей: ваши соло становятся более разнообразными, вы можете играть больше быстрых произведений, которые было бы очень тяжко сыграть тремя пальцами левой руки.

1. Упражнение на развитие мышц мизинца

Как обычно никуда не топимся, играем сначала медленно.

G-7-6-5-6-5-4-5-4-|-3-4-3-2-3-2-1-2-|-1-0-------------|
D-----------------|-----------------|-----p-0-1-2-1-2-|
A-----------------|-----------------|-----------------|
E-----------------|-----------------|-----------------|

G-----------------|-----------------|-----------------|
D-3-2-3-4-3-4-5-4-|-5-6-5-6-7-------|-----------------|
A-----------------|-----------------|-----------------|
E-----------------|-----------------|-7-6-5-6-5-4-5-4-|

G-----------------|-----------------|-------3-4-5-----|
D-----------------|-----------------|-2-3-4-----------|
A-----------------|-----0-1-2-------|-------------4-5-|
E-3-4-3-2-3-2-1-2-|-1-0-------1-2-3-|-----------------|

G-----------------|-----------------|
D---------6-7-8---|-----------------|
A-6-------------7-|-1---------------|
E---5-6-7---------|-----------------|

Играем это упражнение тремя пальцами, не используя указательный. Это упражнение надо выполнять чаще, а лучше каждый день, как разминку. Теперь если вы можете перейдем к следующему упражнению.

2. Растяжка пальцев

Песня группы "Ария", "Тореро"

Играем так же тремя пальцами, не используя указательный.

G-7-----9-----10-----7-----9---10---|-5-----7-----9-----5-----7---9---|
D---0-0---0-0----0-0---0-0---0----0-|---0-0---0-0---0-0---0-0---0---0-|
A-----------------------------------|---------------------------------|
E-----------------------------------|---------------------------------|

G-3-----5-----7-----3-----5---7---|-2-----3-----2-----3-----2---5---|
D---0-0---0-0---0-0---0-0---0---0-|---0-0---0-0---0-0---0-0---0---0-|
A---------------------------------|---------------------------------|
E---------------------------------|---------------------------------|

Играть надо четко и ровно, лучше под метроном. Если у Вас не получается это упражнение, попробуйте играть ноты только на первой струне, используя безымянный палец правой руки. Вообще лучше всего играть следующим образом: указательным и средним пальцем на второй струне, а безымянным на первой. Попробуйте сыграть это упражнение, используя медиатор. Когда Вы научитесь играть ровно и быстро, можете переходить к следующему упражнению.

3. Координация рук

Это упражнение поможет развить координацию пальцев рук. Играется оно очень быстро.

G-5-7---6-8---8-10----9-11----12-14----13-|-15----14-15----17-19----|
D-----8-----9------11------12-------15----|----16-------17-------19-|
A-----------------------------------------|-------------------------|
E-----------------------------------------|-------------------------|

G-------------------------------------------------|
D-------17-------18----19-------20-------21-------|
A----16-------17----18-------19-------20-------21-|
E-15-------16----17-------18-------19-------21----|

G-----------------------------------------------|
D-21------20------19-------18-------16-------18-|
A----21------19------18-------17----16----17----|
E-------21------18------17-------16----15-------|

G----------------------------------------|
D-----------------9-------11-------13-14-|
A-----5-----7---8------10-------12-------|
E-4-5---6-7---8-----10-------12----------|

G-------------------------------------------|
D-17-18-19-21-------------------------------|
A-------------19----------------------------|
E----------------18-16-14-12-10-9-7-5-3-1-0-|

Даже не думайте, что сможете сыграть это упражнение с первого раза, оно очень сложное и даже у меня не всегда получается.

Заключение

Для развития мизинца можно играть много разных упражнений, но практика показывает, что самыми лучшим упражнением являются игра классических произведений, в которых необходимо задействовать все пальцы левой руки.

Надеюсь, Вам была интересна моя статья. Желаю удачи и творческих успехов!

Автор статьи: Карташёв Александр
г.Сургут 2005г.


Youtube VK Twitter






Rambler's Top100