Сайт для бас гитаристов
Новости о бас гитаре Уроки для бас гитаристов Статьи на басовые темы Форум для бас гитаристов BassLife подкасты



Как-то вечером шатаясь по интернету я наткнулся на несколько видеороликов, где Jim Stinnet делился секретами слэпа (http://www.jimstinnett.com. Не уверен что в кадре сам Jim, но голос за кадром точно его.). Эти видеоролики показались мне очень интересными, и я решил выложить их на своем сайте. Понимая, что не все посетители BassLife.ru знают английский, я решил снабдить материал своими комментариями.

Итак, Jim предлагает нам попрактиковаться в слэпе. Для начала он показывает несколько движений.

  1. Удар большим пальцем сверху по струне. После удара палец фиксируется на следующей струне. Удар производится за счет вращения кисти.(Slap. На табулатуре этот удар буду обозначать так: S)
  2. Поддеваем четвертую струну указательным пальцем и резко дергаем вверх. При этом возвращаясь, струна бьется о лады грифа. (Pop. P на табулатуре)
  3. Удар ребром указательного пальца сверху по струне (Да здравствует балалайка!!! :) F1 на табулатуре).
   S  S  S     P  P  P     F1 F1 F1
E-----------|-----------|-----------|
A-----------|-----------|-----------|
D--0--0--0--|-----------|-----------|
G-----------|--0--0--0--|--0--0--0--|

Видеоролик 1 (442Kb)

Когда Вы научитесь правильно делать эти удары, можно переходить к следующей части. Jim предлагает сыграть следующий риф (Обратите внимание, вторая нота играется приемом hammer-on):

   S   P  S P  F1 S     S   P  S P  F1 S     S   P  S P  F1 S   
E--------------------|--------------------|--------------------|
A--------------------|--------------------|--------------------|
D--0h3----3-------3--|--0h3----3-------3--|--0h3----3-------3--|
G------0----0--0-----|------0----0--0-----|------0----0--0-----|

Играйте его сначала медленно (Видеоролик 2 (508Kb)), а затем чуть быстрее (Видеоролик 3 (352Kb)).

Немного разовьем идею (Видеоролик 4 (557Kb)),

   S   P  S P  F1 S      S  S   P    
E--------------------------------------|
A----------------------------------1--.|
D--0h3----3-------3--0---x--0h2----3--.|
G------0----0--0-----3\5--------0------|

Теперь увеличим скорость и добавим вступление(Видеоролик 5 (843Kb)). Вступление играется ногтем указательного пальца, как будто Вы держите в руке медиатор.

Вступление                                      S S
E---------------------------------------------------|
A--17-------17-------17------17------17-------------|
D-----15-15-------15---15--15--15--15--15-------5-5-|
G--------------16--------16------16-------x---------|


S S P S P S P F1 S S S P 7x
E-------------------|--------------------------------------|
A-----------------1-|.---------------------------------1--.|
D---0---x--0h2----3-|.-0h3----3-------3--0---x--0h2----3--.|
G---3\5--------0----|------0----0--0-----3\5--------0------|

На этом пока все. Желаю удачно провести время.

Оригинальные ролики: http://www.jimstinnett.com
Комментарии: Alex[BL]


Youtube VK Twitter






Rambler's Top100