нужно подобрать

Разговоры не имеющие прямого отношения к тематике форума

Модераторы: List, Dark Sun, Cmaj

Ответить
  • Автор
  • Сообщение
Не в сети
Криворукий
Сообщения: 2
Зарегистрирован: Пт ноя 19, 2010 12:34 pm

нужно подобрать

Сообщение antoniosha » Пт ноя 19, 2010 12:46 pm

http://ifolder.ru/20352318
и если можно подбор баса нужен в формате гитарпро

Не в сети
Аватара пользователя
Виртуоз
Сообщения: 404
Зарегистрирован: Пт ноя 04, 2005 5:14 pm
Откуда: П.-Камчатский

Re: нужно подобрать

Сообщение List » Сб ноя 20, 2010 7:16 am

Скромнее будь
_________________
Ждём весну

Не в сети
Криворукий
Сообщения: 2
Зарегистрирован: Пт ноя 19, 2010 12:34 pm

Re: нужно подобрать

Сообщение antoniosha » Сб ноя 20, 2010 9:32 am

а что не так? просто нужно срочно, к сожалению не получается подобрать у самого(((

Не в сети
Аватара пользователя
Виртуоз
Сообщения: 404
Зарегистрирован: Пт ноя 04, 2005 5:14 pm
Откуда: П.-Камчатский

Re: нужно подобрать

Сообщение List » Сб ноя 20, 2010 6:12 pm

Это как, если у тебя дома происходит пьянка, и тут я завалмваюсь в вашу компанию, совершенно никому не знакомый, и прошу мне налить. Нормально попросил бы о помощи. Или для тебя это норма поведения?
_________________
Ждём весну

Не в сети
Аватара пользователя
Гроза Соседей
Сообщения: 817
Зарегистрирован: Вт ноя 09, 2010 11:11 pm

Re: нужно подобрать

Сообщение PaVliQ » Сб ноя 20, 2010 6:31 pm

Ха-ха, класс.

Помню, как-то меня интерактивно попросили персонально сделать табы (GP) для бас-соло IM - Stranger in a Strange Land, и то конкретно предварительно услышав мою версию кавер-партии, снятой на слух. Ну я сделал, не в лом, в таком случае ладно ... не вопрос.

Но на примере первой просьбы, конечно конретный зачОт за прямо-так смелость.

Вот в шутку бросаю просьбу (гипотетическую, если бы и мне хватило такой-же смелости), в стиле а не подберет ли тут кто мне такой бас (я шуткую, еще раз повторяю) и пропишет в гитар про, как услышал мечтаю это поиграть, сам не могу подобрать....))))))

http://ifolder.ru/20371446


Тут совет antoniosha такой, ищи вдруг бывает кто исполняющий каверы твоей той композиции (или даже на Yotube каком нибудь например) и ломись с просьбами о бас табах. А если таких нет, вариант подбирать только самому (и ОБЯЗАТЕЛЬНО размещать на ресурсах типа GuitarProTabs и т.д. - кто-то ж должен быть первым, кто подобрал).

Не в сети
Аватара пользователя
Болтливый Монстр
Сообщения: 1140
Зарегистрирован: Чт дек 04, 2008 8:42 am
Откуда: Москва
Контактная информация:

Re: нужно подобрать

Сообщение Cmaj » Вс ноя 21, 2010 1:16 am

antoniosha писал(а): не получается подобрать у самого(((
не обижайся, но тогда тебе в бэнде играть шибко рано, да и вообще на сцену вылезать рано, если даже такой услышать (=подобрать) не можешь...

Не в сети
Аватара пользователя
Гроза Соседей
Сообщения: 817
Зарегистрирован: Вт ноя 09, 2010 11:11 pm

Re: нужно подобрать

Сообщение PaVliQ » Вс ноя 21, 2010 2:27 am

antoniosha

Никогда не делал табов (только по нотам в GuitarPro), а тут вот решил почувствовать себя таббером, т.к. лень было запускать GP, а notepad был открыт, и вот примерно такое набросал за минуту, это самое начало той композиции, как ее слышу я, контрабас на слух кстати разбирать не совсем просто, табберная форма написания естественно очень архаичная и очень приблизительная, и не удивлюсь если в некоторые "ноты не попал" (и естественно никакого ритма табы по определению не показывают):

G -------------------------------------------------------
D -------12----------12-12---------12--------------------
A ----------------------------------------------------------
E 10-10-------10-10--------10-10-----(X)--6--(X)--8----

(4x repeat)




-------7----9----10------------7------9------7-----
---------------------------------------------------
---------------------------------------------------
10----------------------10-------------------------



------------7----9-------------5------7------5-----
------10-------------------------------------------
---------------------------------------------------
8----------------------8---------------------------


------------5----7-------------3------5------3-----
-------8-------------------------------------------
---------------------------------------------------
6-----------------------6--------------------------


---------------------------------------------------
--------------------------------------7------------
------------3------------------7-----------7-------
3------6---------3------5--------------------5-----


e.t.c. самому по накатанной......
Ответить

Кто сейчас на конференции

Сейчас этот форум просматривают: нет зарегистрированных пользователей и 1 гость