Сайт для бас гитаристов
Новости о бас гитаре Уроки для бас гитаристов Статьи на басовые темы Форум для бас гитаристов BassLife подкасты



Пента в переводе с греческого означает пять. Пентатоники - это гаммы, в состав которых входит пять различных нот. Существует огромное количество гамм состоящих из пяти нот. Мы рассмотрим лишь наиболее распространенные: мажорные и минорные пентатоники.

Чтобы понять, как они устроены, Вы должны знать принцип построения мажорных и минорных гаммы, поскольку пентатоники основаны на них. Мы коснемся основ построения мажорных и минорных гамм.

Мажорная гамма

В основе мажорной гаммы лежит шаблон: Т Т П Т Т Т П, где Т - это тон, а П - полутон (если вы сыграете две ноты через лад, например ноты на первом и третьем ладу, то получите две ноты, расстояние между которыми соответствует тону. Расстояние между нотами на соседних ладах соответствует полутону). Гамма С мажор состоит из звуков натурального звукоряда от С до С. Каждой ноте в гамме присваивается номер от 1 до 7. Эти номера очень важны для понимания музыкальной теории. Они помогут вам понять, как строятся другие гаммы и арпеджио. Мажорная гамма - это основа, по отношению к которой рассматриваются все другие гаммы.

 Т Т П Т Т Т П                 
C D E F G A B C - Гамма C мажор
1 2 3 4 5 6 7 1 - Функция гаммы

Аппликатура основной мажорной гаммы.

(цифрами показаны компоненты функции гаммы)

|--2--|-----|--3--|--4--| -1-я струна
|--6--|-----|--7--|--1--|
|--3--|--4--|-----|--5--|
|-----|--1--|-----|--2--| -4-я струна

Минорная гамма

Если Вы будете играть ноты гаммы C мажор, начиная с A и заканчивая A, то получите естественную гамму A минор. Эта гамма также имеет свой шаблон, состоящий из тонов и полутонов: Т П Т Т П Т Т. Таким образом, гаммы C мажор и A минор состоят из одних и тех же нот, различаясь только их порядком. Если вы будите применять этот шаблон для построения гаммы от ноты С, то в состав гаммы будут входить бемоли нот E, A и B. Теперь можете сравнить ноты мажорной и минорной гаммы. Обратите внимание на функцию аккордов. Нота E гаммы C мажор обозначена номером 3, а нота Eb гаммы C минор - номером b3 (бемоль третьей ноты). Таким образов, в состав функции минорной гаммы входят b3, b6, b7.

 Т П  Т Т П  Т  Т                    
C D Eb F G Ab Bb C - гамма C минор
1 2 b3 4 5 b6 b7 1 - функция аккордов

Аппликатура основной минорной гаммы.

(цифрами показаны компоненты функции гаммы)

|--2--|-b3--|-----|--4--|-----| -1-я струна
|-----|-b7--|-----|--1--|-----|
|-----|--4--|-----|--5--|-b6--|
|-----|--1--|-----|--2--|-b3--| -4-я струна

Мажорная пентатоника

Мажорная пентатоника включает в себя ноты мажорной гаммы за исключением четвертой и седьмой ноты. Таким образом, мажорная пентатоника состоит из нот 1 2 3 5 6

C D E F G A B C - Гамма С мажор
1 2 3 5 6 1 - Функция гаммы

Основная мажорная гамма

|--2--|-----|--3--|--4--| -1-я струна
|--6--|-----|--7--|--1--|
|--3--|--4--|-----|--5--|
|-----|--1--|-----|--2--| -4-я струна

Формула мажорной пентатоники имеет вид: 1 2 3 5 6.

C D E G A C - Гамма С мажор
1 2 3 5 6 1 - Функция гаммы

Аппликатура мажорной пентатоники

|--2--|-----|--3--|-----| -1-я струна
|--6--|-----|-----|--1--|
|--3--|-----|-----|--5--|
|-----|--1--|-----|--2--| -4-я струна

Минорная пентатоника

Минорная пентатоника основана на нотах минорной гаммы. В нее не входят ноты 2 и b6. Таким образом, формула минорной пентатоники имеет вид: 1 b3 4 5 b7.

C D Eb F G Ab Bb C - гамма C минор
1 b3 4 5 b7 1 - функция гаммы

Основная минорная гамма

|--2--|-b3--|-----|--4--|-----| -1-я струна
|-----|-b7--|-----|--1--|-----|
|-----|--4--|-----|--5--|-b6--|
|-----|--1--|-----|--2--|-b3--| -4-я струна
C Eb F G Ab Bb C - гамма C минор
1 b3 4 5 b7 1 - функция гаммы
|-b3--|-----|--4--|-----| -1-я струна
|-b7--|-----|--1--|-----|
|--4--|-----|--5--|-----|
|--1--|-----|-----|-b3--| -4-я струна

Youtube VK Twitter






Rambler's Top100