Сайт для бас гитаристов
Новости о бас гитаре Уроки для бас гитаристов Статьи на басовые темы Форум для бас гитаристов BassLife подкасты
Подпишись на наш telegram канал @basslife



Блюзовые рифы

Привет. Сегодня мы будем работать с песней "Circle Of Hands" группы Mothers Army.
Этот урок достаточно прост. Песня написана в тональности E-минор (которая является также E эолийским ладом G-мажора). Однако, если Вы внимательно посмотрите на табулатуры, то обнаружите, что в песне используются ноты других минорных гамм. Например, нота F (см. 3-ю часть) может рассматриваться, как нота, входящая в E Фригийский лад (E, F, G, A, B, C). Рассматривайте такие ноты как ноты, комбинации минорных гамм. Достаточно распространен случай, когда музыкант, хорошо знающий музыкальную теорию буквально убивает песню, пытаясь написать совершенное произведение, используя только ноты гаммы. Песня, написанная таким образом, получается "механической", лишенной "чувства ". Песня требует эмоций, поэтому не обойтись без специальных акцентов. Имейте это ввиду, когда пишете музыку. Используйте комбинации гамм. Не бойтесь экспериментировать и ошибаться, только так можно добиться хороших результатов.

Песня начинается с intro, которое переходит в интересное басовое сопровождение. Очень стильно звучит slide сразу после вокальной партии "can you hear me". Необычен выбор нот в outro второго куплета. Ноты выбиваются из основной тональности. В outro используется A дорийский лад, включающий ноту F#, создающую этот специфический эффект.

Обзор гамм. Натуральный E минор (E,F#,G,A,B,C,D,E)

с открытыми альтернативная
струнами позиция
E F#G A B C D E E F#G A B C D E
G:-----------------|-----------------|
D:-------------0-2-|-----------------|
A:-------0-2-3-----|-------------5-7-|
E:-0-2-3-----------|-0-2-3-5-7-8-----|

E Фригийский A Дорийский
E F G A B C D E A B C D E F#G A
G:-----------------|-----------------|
D:-------------0-2-|-------------5-7-|
A:-------0-1-2-----|-------5-7-9-----|
E:-0-1-3-----------|-5-7-8-----------|

Circle Of Hands

                     Басовое сопровождение 
Часть 1(Intro) #1 #2
G:-----------------------------------------
D:-----------------------------------------
A:-------------------------5---------5-----
E:-0----------------8-7-0------8-7-0---5-7-

#3 #4
G:----------------------------------------
D:-----------------------------3-3-2------
A:--------------5-------------3------3----
E:-8-7----8-7-0---5-7--8-7-0-1------------

игра A и slide
G:------------------------------------------
D:------------------------------------------
A:------------------------------------------
E:-5-5-5-5--5-5-5-5--5-5-5-5--5-5-5-5---5/1-

Outro
G :------------------------
D :------------------------
A :-5----5----5------------
E :---3----2-----3------0--

О том, как писалась песня

Джеф Вацон воплотил в этой песни идею открытого рифа, над остальными частями песни мы работали вместе. Я придумал название, тему и написал большую часть лирики. Мы с Джефом написали еще несколько басовых линий вместе. При записи я использовал старый Hamer Джефа.
Песни с альбома "Planet Earth" менее агрессивны, чем другие наши вещи. Этот альбом получился нежным и философским. Я могу слушать его бесконечно, и чем больше слушаю, тем больше он мне нравится. Надеюсь, у вас возникает схожее чувство.


Youtube VK Twitter






Rambler's Top100