Бас гитара уроки гитаристы басисты BassLife.ru
  
Главная arrow Новичкам arrow Чтение табулатур для бас гитары
Twitter бас гитариста

Чтение табулатур для бас гитары
Принцип построения табулатур и используемые обозначения.

Табулатура (или кратко Tab) - это система записи нот для гитары и баса. Статья посвящена обзору распространенных в интернете табулатур. Интернет табулатуры немного отличаются от табулатур, публикуемых в книгах и журналах.

Линии в басовой табулатуре

Табулатура для стандартной четырех струнной бас гитары содержит четыре линии - по одной на каждую струну.

G:---------------------------------------- --> 1-я струна
D:---------------------------------------- --> 2-я струна
A:---------------------------------------- --> 3-я струна
E:---------------------------------------- --> 4-я струна

Число линий в табулатуре соответствует числу струн инструмента, для которого они составлены. Так табулатура для пяти-струнной бас гитары будет содержать пять линий.

Нижняя линия соответствует четвертой струне бас гитары. Эта струна самая толстая, она создает самое низкое звучание. Эта струна расположена выше других, когда вы держите бас в рабочем положении. Верхняя линия табулатуры соответствует первой струне - самой тонкой.

G: 1 струна --> самая тонкая, создает самый высокий звук, самая низко расположенная на грифе струна.
D: 2 струна --
A: 3 струна --
E: 4 струна --> самая толстая, создает самый низкий звук, расположена выше других струн.

Цифры на басовой табулатуре

Цифры на табулатуре означают лады, которые следует зажимать пальцами левой руки. Например, цифра 3 означает третий лад. То есть Вы должны зажать струну слева от третьего лада. Ноль означает, что нужно просто щипнуть струну, ничего зажимая.

      3-ий лад    открытая струна
| |
G:-------3------------0---------- -->1-я струна
D:-------------------------------
A:-------------------------------
E:------------------------------- -->4-я струна

Порядок игры нот

Табулатура читается слева направо. Рассмотрим подробнее приведенный ниже пример и то, что вы должны играть.

Сначала Вы зажимаете седьмой лад на третьей струне, затем 5-ый лад на второй струне, затем 7-о1 лад на второй струне, потом 5-ый лад на первой струне, потом 7-ой лад на второй струне.

G:--------------5-------- -->1-я струна
D:--------5--7-----7-----
A:-----7-----------------
E:----------------------- -->4-я струна

Игра нескольких нот одновременно

Если вы видите, что номера на табулатуре находятся на одной вертикали, то должны играть соответствующие им ноты одновременно. Например, в приведенном ниже примере, вы должны одновременно сыграть 5-ый лад на первой струне и 5-ый лад на второй струне.

G:----5------------------ -->1-я струна
D:----5------------------
A:-----------------------
E:----------------------- -->4-я струна

Какими пальцами зажимать лады

На табулатуре не указано, какими пальцами вы должны играть ноты. Вы можете использовать любой палец. Как правило, лучше всего использовать по одному пальцу на лад. Рассмотрим пример.

5-ый лад -- указательный палец
6-ой лад -- средний палец
7-ой лад -- безымянный палец
8-ой лад -- мизинец


G:----5--6--7--8--------- -->1-ая струна
D:-----------------------
A:-----------------------
E:----------------------- -->4-ая струна

Имейте в виду, что этот метод не всегда получается использовать. Не бойтесь отклоняться от него.

Итак, в данный момент вы вполне в состоянии сыграть большинство табулатур. Однако в табулатурах встречаются некоторые специальные символы, о которых вы должны знать. И еще одно. Вы должны помнить, что эта система нотной записи не является общепринятым стандартом, и часто авторы табулятур используют собственные обозначения. При работе над песней добудьте запись и используйте ее совместно с табулатурой.

Настройка

Первая информация, которую вы получаете, глядя на табулатуру - это способ настройки гитары. Вы можете обнаружить что-то вроде:

Standard Tuning
Стандартная настройка

Drop D tuning
Пониженная D настройка

Drop D down a half step
Пониженная D на пол тона

Также вы можете встретить перечень нот, соответствующих открытым струнам:

ноты от низких к высоким
notes low to high - Db Ab Db Gb

notes low to high - C G C F

Буквы, которые вы видите слева от линий табулатуры, указывают на ноты, соответствующие открытым струнам. Ниже показан пример табулатуры со стандартной настройкой. Это очень важно знать, поскольку если на табулатуре указана настройка отличная от той, которая присутствует на вашей гитаре, придется сначала перенастроить гитару в соответствии с требованиями табулатуры. В противном случае вы не сможете правильно сыграть песню.

G:-------------- --> 1-я струна
D:-------------- --> 2-я струна
A:-------------- --> 3-я струна
E:-------------- --> 4-я струна

Ниже показана табулатура с пониженной на пол тона (соответствует одному ладу) настройкой. Eb означает E бемоль.

Gb:-------------- --> 1-я струна
Db:-------------- --> 2-я струна
Ab:-------------- --> 3-я струна
Eb:-------------- --> 4-я струна

Вот несколько понятий, которые вы должны знать, чтобы усвоить приведенный выше материал.

Тон. Один тон соответствует двум ладам на вашей гитаре. Если вам необходимо настроить гитару на тон ниже, вы должны понимать, на какую ноту надо настроиться по отношению к стандартной настройке.

Полутон Полутон соответствует одному ладу на бас гитаре.

# Этот символ означает диез. Нота A диез "A#" находится на один лад выше ноты A.

b Этот символ означает бемоль. Нота A бемоль "Ab" находится на один лад ниже ноты A.

Ритм в басовой табулатуре

Как правило, интернет табулатуры не содержат информации о ритме. Намеком на ритм может служить расстояние между нотами, хотя это и не всегда так. При работе с табулатурой вам потребуется запись песни.

Иногда можно встретить табулатуры, где автор разбил песню на меры и представил ритм. Пример ниже.

-------------|--------------------|------------
D:-----------|---------0--2-----3-|-2----------
A:-----------|--3----3------------|------------
E:--------3--|--------------------|------------
4 1 2 & 3 (4) & 1

Ритм также может быть обозначен указанием длительности нот и пауз. Так W-целая нота, h-половинная, q-четвертная, e-восьмая, s-шестнадцатая. Точкой, как и в нотной записи, обозначается продление длительности ноты еще на половину от указанной длительности, например q.=q+1/2q=q+e.

G:-----------|--------------------|------------
D:-----------|---------0--2-----3-|-2----------
A:-----------|--3----3------------|------------
E:--------3--|--------------------|------------
q q e e q. e q

Технические приемы

Табулатуры также содержат специальные символы, указывающие на различные технические приемы, которыми надо пользоваться при игре ноты.

h = хаммер-он (hammer-on)
p = пулл-оф (pull-off)

/ = слайд вверх (slide up)
\ = слайд вниз (slide down)
s = слайд (slide)

b = бенд (bend)
r = обратный бенд (reverse bend, или release bend)

t = тэппинг правой рукой (tap)
+ = тэппинг правой рукой (tap)

x = щелчек или игра заглушенной струны

v = вибрато (vibrato)
~ = вибрато (vibrato)

(5) = дополнительная нота

<5> = гармоника (harmonic)
 

Комментарии  

 
+19 #1 Bobrotyk 27.06.2011 12:46
Пасиб большое помоглло
Цитировать
 
 
+15 #2 Exake 30.08.2011 23:33
Спасибо большое за столь ценную информация
Цитировать
 
 
+5 #3 #3 DiMaZ 30.12.2011 10:35
Огромное спасибо!!!
Цитировать
 
 
+12 #4 БасБас 09.01.2012 06:40
Народ где можно узнать точнее что такое:
h = хаммер-он (hammer-on)
p = пулл-оф (pull-off)

/ = слайд вверх (slide up)
\ = слайд вниз (slide down)
s = слайд (slide)

b = бенд (bend)
r = обратный бенд (reverse bend, или release bend)

t = тэппинг правой рукой (tap)
+ = тэппинг правой рукой (tap)

x = щелчек или игра заглушенной струны

v = вибрато (vibrato)
~ = вибрато (vibrato)

(5) = дополнительная нота

= гармоника (harmonic)
Цитировать
 
 
+4 #5 Timur 16.01.2012 18:59
спасибо большое,мне очень помогло!
Цитировать
 
 
0 #6 ENOT116 23.12.2013 20:07
как я по вашему должен это с играть
Прислал:Сергеев Кирилл
Подобрал:Сергее в Кирилл
Встепление:(Бас )
G|-----------------------|-----------------------|-----------------------|-----------------------|
D|-7---7--7--7--7--7--7--|-6---6--6--6--6--6--6--|-5---5--5--5--5--5--5--|-3---3--3--3--3--3--3--|
A|-5---5--5--5--5--5--5--|-5---5--5--5--5--5--5--|-5---5--5--5--5--5--5--|-5---5--5--5--5--5--5--|
E|-----------------------|-----------------------|-----------------------|-----------------------|
G|-2---2--2--2--2--2--2--|-1---1--1--1--1--1--1--|-0---0--0--0--0--2--0--|-----------------------|
D|-3---3--3--3--3--3--3--|--2---2--2--2--2--2--2-|--2---2--2--2--2-3---2-|-3---3--3--3--3--3--3--|
A|-5---5--5--5--5--5--5--|-5---5--5--5--5--5--5--|-5---5--5--5--5--5--5--|-5---5--5--5--5--5--5--|
E|-----------------------|-----------------------|-----------------------|-----------------------|
Цитировать
 
 
0 #7 HARDCAPS 13.01.2014 14:18
это чё за песня такая? где такое вступление на басухе?
Цитировать
 
< Пред.


Запрещается использование материалов сайта без прямой ссылки на www.basslife.ru
Ледков Александр © 2007





Rambler's Top100